04 novembro 2009

CURSO DE VIOLÃO E GUITARRA - Escalas Pentatônicas (Parte 3)

Vamos começar a chamar as escalas pentatônicas de "pentas", pois é um termo abreviado e bastante usado. Para começarmos é necessário saber que existem penta menor e penta maior, porém a mais conhecida é a menor.
Isso já é o necessário para que você comece a estudar a escala pentatônica. É importante salientar que para que esse estudo comece, o ideal é o praticante já ter alguma iniciação no instrumento.

Pentatônica Menor

-> Escalas Pentatônicas Menores
Formação das Pentatônicas Menores:
Tonica, 3ªm, 4ªjusta, 5ª e 7ªm.

Vejamos o exemplo da Penta Menor de A(lá):
Tonica: A(lá)
3ªm: C(dó)
4ªjusta: D(ré)
5ª: E(mí)
7ªm: G(sol)
Ficando no braço do instrumento da seguinte forma:
e--------------------------5-8-
B---------------------5-8------
G----------------5-7-----------
D-----------5-7----------------
A------5-7---------------------
E-5-8--------------------------
A C D E G A C D E G A C
OBS: Repare que as notas se repetem até acabar as cordas.

Para achar a penta de outra nota basta repetir o processo.
Vejamos o exemplo da pentatônica de E{mí):
Tonica: E(mí)
3ªm: G(sol)
4ªjusta: A(lá)
5ª: B(sí)
7ªm: D(ré)
Ficando no braço do instrumento da seguinte forma:
e--------------------------0-3-
B---------------------0-2------
G----------------0-2-----------
D-----------0-2----------------
A------0-2---------------------
E-0-3--------------------------
E G A B D E G A B D E G
OBS: Repare que, novamente, as notas se repetem até acabar as cordas.

Nenhum comentário: