18 setembro 2008

SEGREDOS DO BOM GUITARRISTA

É claro que algumas pessoas têm mais facilidade em aprender um instrumento do que outras, mas uma coisa que todo bom músico tem em comum são muitas horas de estudo. Não existe formula mágica, procure um bom professor e acima de tudo estude, estude, estude! Outra coisa importante é saber que sempre há muito o que aprender com os outros. Humildade é essencial para se desenvolver como músico. A seguir, algumas dicas práticas para chegar lá:
1) Ouça muita música – Compre um bom fone de ouvido, vá para o seu quarto, apague a luz e ouça com atenção.
2) Ouça de tudo – Não tenha preconceito com algum estilo musical, amplie seus horizontes. Existe música boa e música ruim em qualquer estilo.
3) Invista no seu equipamento – É melhor você ter apenas uma boa guitarra, um bom amplificador e um bom pedal delay do que ter um monte de equipamento ruim que só vai te dar dor de cabeça.
4) Estude, estude, estude – Procure um bom professor, bons métodos, freqüente cursos e workshops etc.
5) Divirta-se – Nada disso faz sentido se tocar guitarra não for algo prazeroso!
12 anos formando talentos!

14 setembro 2008

A ARTE DE SOLAR



Ao contrário do que muitos pensam, solar exige muita técnica e um conhecimento profundo de escalas musicais, A maioria dos solos são compostos baseados em escalas musicais, fazendo as adaptações adequadas, por isso, nesta quero deixar a sua disposição as escalas mais conhecidas para lhe auxiliarem a melhor desenvolver um solo, e que além da guitarra é muito usado no violão e ainda pode ser feito no baixo, dependendo do modelo.
Obs.: A escala é executada da seguinte forma: De baixo do braço para cima. Da sexta corda para primeira. Ou seja, faça todas as notas de uma corda de cada vez, assim: faça todas as notas da Sexta corda, depois da Quinta e assim por diante! No sentido de baixo para cima e volte pelo mesmo caminho !
Obs.: Você não é obrigado a seguir rigorosamente a escala, pode também tocar somente as notas que lhe convém e até pular de uma corda para outra, conforme você achar melhor ! Existem técnicas que quando executadas nos dão uma similação de efeitos sonoros, que podem ser usados para dar mais brilho e vida na música, os mais conhecidos são:
LICK quando se tira 2 ou mais notas de uma única palhetada.
BEND quando se faz uma nota em uma casa e puxa uma nota um tom mais alto puxando a corda.
BEND INVERSO quando se faz uma nota em uma casa com a corda já puxada, depois você deixará de esticá-la.
TWO-HAND deixar o indicador pressionando uma casa e fazer um revezamento com o anular da mesma mão e o dedo médio da mão direita, esse método é usado na guitarra e no baixo. HARMÔNICO é executado nas 5a, 7a e 12a casas, encostando de leve o dedo na corda, nas casas já mencionadas.
SOLO é executado tocando apenas uma corda de cada vez, como na guitarra.
FEED BACK é um arranjo usado em guitarras, mas pode ser usado em alguns modelos de violão, segure a palheta de forma que quando você tocar o polegar direito toque de leve na corda para causar o efeito de grito!
SLIDE é feito a nota em uma casa e puxamos uma outra nota na mesma corda em uma casa diferente arrastando o dedo para cima.
SLIDE INVERSO é feito a nota em uma casa e puxamos uma outra nota na mesma corda em uma casa diferente arrastando o dedo para baixo.
LIGADO é feito em uma das cordas tocando uma nota qualquer, depois você irá tirar duas ou mais notas alternando os dedos sem palhetar o instrumento.
www.artmaia.com

06 setembro 2008

FINGER PICKING ( DEDILHADO ) PARTE 2 - EXERCÍCIOS


Uma vez que você aprendeu a técnica, experimente este exercício. Toque cada compasso 4 vezes e então passe para o próximo exercício. Continue tocando até que você consiga tocar bem solto.
01
E------3------------------------3-------
B ----------0---------------0------------
G -------------0-------0-----------------
D --0--------------0---------------------
A -----------------------------------------
E -----------------------------------------
02
E ------0------------------------0-------
B ----------0---------------0------------
G -------------0-------0-----------------
D --2--------------2---------------------
A -----------------------------------------
E -----------------------------------------
03
E ------0------------------------0-------
B ----------1---------------1------------
G -------------0-------0-----------------
D --2--------------2---------------------
A -----------------------------------------
E -----------------------------------------
04
E ------2------------------------2-------
B ----------1---------------1------------
G -------------2-------2-----------------
D --0--------------0---------------------
A -----------------------------------------
E -----------------------------------------
É muito bom você aprender o básico corretamente. Se você é capaz de tocar bem esses exercícios, você estará no caminho correto para dominar a técnica de dedilhados.

05 setembro 2008

GANHE UM VIOLÃO EAGLE ELETRO ACÚSTICO GRÁTIS!


Aprenda a tocar Violão e Guitarra a distância, com módulos teóricos e práticos, Cds didáticos, Professor On-line, Carteira de Estudante e Certificado de Conclusão. Acesse http://www.artmaia.com .com e conheça todos os nossos cursos. Somos especializados no ensino musical a distância! Aproveite e faça o seu cadastro gratuito no CLUB ARTMAIA e participe de todas as nossas promoções, você pode ganhar muitos prêmios! Este Mês você poderá levar para casa um Violão Eletro-acústico da marca Eagle e uma caixa amplificada sem nenhum custo adicional!
Para maiores informações acesse: http://www.artmaia.com
12 anos formando talentos!

04 setembro 2008

ESCALAS MODOS GREGOS

Modos Gregos- G Jônio
-------------------------------5-7-8-
-------------------------5-7-8-------
-------------------4-5-7-------------
-------------4-5-7-------------------
-------3-5-7-------------------------
-3-5-7-------------------------------

Dório
--------------------------------7-8-10-
-------------------------7-8-10--------
-------------------5-7-9---------------
-------------5-7-9---------------------
-------5-7-9---------------------------
-5-7-8---------------------------------

Frígio
-------------------------------------8-10-12-
-----------------------------8-10-12---------
----------------------7-9-11-----------------
---------------7-9-10------------------------
--------7-9-10-------------------------------
-7-8-10--------------------------------------

Lídio
------------------------------------------10-12-14-
---------------------------------10-12-13----------
-------------------------9-11-12-------------------
-----------------9-10-12---------------------------
---------9-10-12-----------------------------------
-8-10-12-------------------------------------------

Mixolídio
----------------------------------------------12-14-15-
-------------------------------------12-13-15----------
----------------------------11-12-14-------------------
-------------------10-12-14----------------------------
----------10-12-14-------------------------------------
-10-12-14----------------------------------------------

Eólio
----------------------------------------------14-15-17-
-------------------------------------13-15-17----------
----------------------------12-14-16-------------------
-------------------12-14-16----------------------------
----------12-14-15-------------------------------------
-12-14-15----------------------------------------------

Lócrio
----------------------------------------------15-17-19-
-------------------------------------15-17-19----------
----------------------------14-16-17-------------------
-------------------14-16-17----------------------------
----------14-15-17-------------------------------------
-14-15-17----------------------------------------------
www.artmaia.com

02 setembro 2008

O VIBRATO NA GUITARRA

O vibrato é o efeito de variação de tom conseguido com a alavanca ou mesmo através de pressão variável do dedo sobre a corda no braço do instrumento.

E----------------------------------------
B---------------------------------------
G---------------------------------------
D-------2--5~--------------------------
A----3----------------------------------
E---------------------------------------
Neste caso a última nota deve sofrer vibrato. É necessário conhecer a música em questão para saber como este vibrato deve ser efetuado.
www.artmaia.com

A TÉCNICA DO HAMMER-ON NA GUITARRA


Um hammer-on consiste em martelar com um dedo da mão esquerda uma corda em um traste fazendo soar a nota sem o auxílio da mão direita.
E--------------------------------------------
B---------------------------------------------
G---------------------------------------------
D---------------------------------------------
A-----------5h7-------------5h7-----------
E---0--0------------0--0--------------------
No exemplo acima após ferir a sexta corda solta duas vezes o músico deverá ferir a quinta corda na quinta casa e imediata e vigorosamente apertar a mesma corda (quinta) duas casas a frente (sétimo traste), fazendo a corda soar apenas com a martelada e sem auxílio da mão direita. Depois repita a seqüência.
www.artmaia.com

01 setembro 2008

A TÉCNICA DE SLIDE

Slide é a técnica em que uma nota é tocada e então seu dedo desliza até outra nota. Este é um exercício bem simples. Geralmente você verá na tablatura o símbolo "/" para um slide up (acima) e " \" para um slide down (abaixo).
Slide Up
Na corda A , pressione na casa 5 e então toque-a, então, sem remover o seu dedo, deslize até a casa 7. Não toque novamente.
E-----------------------------------------
B -----------------------------------------
G -----------------------------------------
D -----------------------------------------
A ------------5 / 7-----------------------
E -----------------------------------------

Lembre: Não remova o dedo do braço da guitarra(escala) quando estiver fazendo o sliding. Mantenha o dedo pressionado na escala da guitarra.
Slide Down
Na corda B , pressione na casa 5 e então toque.sem remover o dedo, deslize até a casa 3. Não toque novamente.
E -----------------------------------------
B ---------------5 \ 3--------------------
G -----------------------------------------
D -----------------------------------------
A -----------------------------------------
E -----------------------------------------

CURSO BÁSICO DE VIOLÃO E GUITARRA


O curso de Violão e Guitarra nível básico ARTMAIA, é dedicado aos iniciantes e todos aqueles que desejam aprender a tocar, e não possuem nenhum conhecimento musical. O curso básico está dividido em 7 módulos de estudos teóricos e práticos acompanhados de 8 Cds didáticos. Ao final de cada módulo o aluno deverá fazer um teste teórico para que seja avaliado o seu aproveitamento e, ao final do nível básico, no sétimo módulo, deverá fazer uma avaliação geral que será corrigida pelo professor e que dará direito ao Certificado de Conclusão, sendo para isso necessário que o aluno atinja uma nota satisfatória. O curso completo de Violão e Guitarra ARTMAIA é formado por três estágios de aprendizagem: Básico (7 módulos), Intermediário(2 módulos) e Avançado(1 módulo), todos acompanhados de Cds de apoio.
CONHECENDO O CURSO DE VIOLÃO E GUITARRA BÁSICO
Este curso é prático e teórico, dividido em 7 módulos de estudos com lições atraentes contendo um profundo e ensinamento destes dois instrumentos musicais. São aulas com informações importantes, ritmos, exercícios de técnica, dicas, curiosidades e músicas para você desenvolver todo o seu potencial. Os assuntos são explicados através de textos descomplicados e objetivos, onde são utilizados, exemplos com fotos, desenhos e gráficos, o que torna o estudo interessante e agradável. Este curso é extremamente prático, e o aluno começa a tocar á partir da primeira aula, mesmo que nunca tenha estudado nada sobre Violão ou Guitarra em sua vida. O Curso de Violão e Guitarra Básico ARTMAIA, conta ainda com o apoio de 8 Cds didáticos, onde o professor reforça com explicações detalhadas todo o conteúdo dos módulos, dando ao aluno a mesma base teórica e prática que ele teria se tivesse um ótimo professor particular, e isso, por uma mensalidade muito mais acessível, pois normalmente as Escolas de Música convencionais costumam cobrar preços elevados. Neste curso o aluno conta com o exclusivo Professor On-line, que está sempre a disposição para esclarecer qualquer dúvida, em qualquer dia da semana. Se você não sabe tocar Violão ou Guitarra, ou sabe muito pouco e quer aprender de verdade, através de um curso feito na medida certa para você, venha estudar conosco! Faça agora a sua Matrícula On-line e entre definitivamente para o maravilhoso mundo da música!
Para maiores informações acesse o site www.artmaia.com
12 anos de atendimento formando talentos!