24 agosto 2012

Curso de Violão e Guitarra - As técnicas mais utilizadas

•Slide
O slide consiste, basicamente, em tocar uma nota e "escorregar" o dedo para outra(s) casa(s)/nota(s).

Exemplo

E|--------------------
B|--------------------
G|------------7------
D|-----5-7/9---9----
A|-3/5---------------
E|--------------------



•Bend
Consiste em tocar uma nota e move-la (a corda,para cima ou para baixo)junto ao braço fazendo com que a nota suba para uma região mais alta(agúda), transformando-a em outra nota. O bend pode ser de 1/4 de tom, 1/2 tom, 1 tom, 1 tom e 1/2, 2 tons, 2 tons e 1/2 ou 3 tons.
Nas cordas agudas puxa-se a corda pra cima, nas graves para baixo.

Exemplo

E|--------------------
B|--------------------
G|-----5b----5b-------
D|--5b----5b----7-----
A|--------------------
E|--------------------

Neste caso o "b" representa um bend de 1/2 tom, a nota do(C) da casa 5 ao sofrer o bend soou como um do(C#) sustenido.



•Pre-Bend
Consiste em puxar uma nota para alcançar o som que se queira e após isso executar a nota, a diferença do pre-bend pro bend e que no bend primeiro você toca a nota do traste que esta marcando e depois ergue a corda e no pre-bend você primeiro ergue a corda e depois toca, omitindo a nota de origem. Tambem vai de 1/4 de tom a 3 tons.

Exemplo

E|--------------------
B|--------------------
G|-----b5----b5-------
D|--b5----b5----7-----
A|--------------------
E|--------------------

Neste caso, um pre-bend de 1/2 tom, a nota de origem, o do(C), nao soa, apenas o do(C#) sustenido.



•Release
Consiste em "baixar" a corda apos um bend ou de um pre-bend.

Exemplo

E|--------------------
B|--------------------
G|--------5br5--------
D|--5br5--------7-----
A|--------------------
E|--------------------



•Ligado
O ligado nada mais e do que tocar uma e "martelar" uma casa mais agúda, ou "desmarcar" a nota que foi tocada para uma outra casa mais grave soar. Esse recurso e muito utilizado para licks velozes, pois dispensa o uso de palheta.

O ligado ascendente quando você "martela" uma casa mais agúda também e chamado de hammer on.
O liga descendente quando você "desmarca" a nota atual para soar uma mais grave também e chamado de pull off.

Exemplo

E|--------------------
B|--------------------
G|--------5h7p5-------
D|--5h7p5-------7-----
A|--------------------
E|--------------------



•Vibrato
Consiste em fazer leves bends para baixo e para cima em sequencia.

Exemplo

E|--------------------
B|--------------------
G|--------5~~~~-------
D|--5~~~~-------7-----
A|--------------------
E|--------------------


•Tapping
É usar um dos lados da palheta(o que lhe for mais confortável, ou o próprio dedo) para "martelar" uma casa(nota). Esse recurso é usado para alcançar rapidamente regiões mais agudas do braço do instrumento.

Exemplo

E|--------------------
B|--------------------
G|--------5-t17-------
D|--5-t17------7------
A|--------------------
E|--------------------