09 fevereiro 2011

Curso de Violão e Guitarra - Palhetada Alternada



Vamos aprender a técnica da palhetada alternada. No começo é dificil  tocar sem se atrapalhar com a palheta, mas depois você conseguirá com os olhos fechados. Para conseguir isso, vamos fazer o seguinte exercício (o “C” significa que você vai tocar a palhetada pra cima, e o “B” para baixo):


e-----------------------1-2-1------------------------|
B-------------------1-2-------2-1--------------------|
G--------------1-2-----------------2-1---------------|
D---------1-2--------------------------2-1-----------|
A-----1-2-----------------------------------2-1------|
E-1-2--------------------------------------------2-1-|
B C B C B C B C  B C B C B  C B  C B C B  C B  C B
OBS: Nesse exercício, voce irá começar da 1ª casa e vai até a 11ª(com o dedo 1).Começar fazendo devagar.

No proximo exercício, você vai fazer quase a mesma coisa, mas também vai usar o dedo 3 e 4. 
e---------------------1-2-4-3------------------------|
B-----------------1-2---------4-3--------------------|
G-------------1-2-----------------4-3----------------|
D---------1-2-------------------------4-3------------|
A-----1-2---------------------------------4-3--------|
E-1-2-----------------------------------------4-3----|
B C B C B C B C B C B C B C B C B C B C B C B C
 
OBS: fazer até a 9ª casa com o dedo 1.Começar fazendo devagar.

Exercício:


e-5-4-0-7-5-0-8-7-0-10-8-0-12-10-0--|
B-----------------------------------|
G-----------------------------------|
D-----------------------------------|
A-----------------------------------|
E-----------------------------------|

e-5-4-0-8-7-0-7-5-0------------|
B------------------------------|
G------------------------------|
D------------------------------|
A------------------------------|
E------------------------------|

e-5-4-0-7-5-0-8-7-0-10-8-0-12-10-0--|
B-----------------------------------|
G-----------------------------------|
D-----------------------------------|
A-----------------------------------|
E-----------------------------------|

e-5-4-0-8-7-0-5-3-0------------|
B------------------------------|
G------------------------------|
D------------------------------|
A------------------------------|
E------------------------------|

e-3-2-0-5-3-0-7-5-0-8-7-0-11-8-0-11-12-------|
B--------------------------------------------|
G--------------------------------------------|
D--------------------------------------------|
A--------------------------------------------|
E--------------------------------------------|
OBS:  Tocar os exercícios acima, sem pausa, como se as tablaturas fossem uma só.


Fonte de referencia do artigo: Cifras.com.br

Nenhum comentário: