23 fevereiro 2011

Curso de Violão e Guitarra - Pequeno estudo básico sobre escalas


Escalas:

 - Pentatônica
 - Maior
 - Menor
 - Harmônica
 - Melódica

Escala é uma sucessão de sons que se distribuem em tons e semitons. É muito importante o estudo das escalas, pois ele contribui para o desenvolvimento auditivo, o desenvolvimento mecânico das mãos e a compreensão das posições das notas em todo o braço. Devemos ter em mente que toda melodia está baseada sempre em algum tipo de escala.
Introdução à Pentatônica

O que é Pentatônica?
- Pentatônica é o nome de uma escala formada por cinco notas, original do blues que, por ser formada de cinco notas leva esse nome.

Para que é usada? Por que estuda-la?
- É usada na criação de solos e riffs nos mais diversos campos do rock, desde o blues até o metal. É interessante você estudar a escala pentatônica pois ela é muito usado hoje em dia, compreendendo essa escala você saberá de onde famosos guitarristas criam os solos e poderá criar seus próprios solos e licks.

Iniciação

    Vamos começar a chamar as escalas pentatônicas de "pentas", pois é um termo abreviado e bastante usado, bem para começarmos é necessário saber que existem penta menor e penta maior, porém a mais conhecida e praticada é a menor. Isso já é o necessário para que você comece a estudar a escala pentatônica, é importante salientar que para que esse estudo comece o ideal é o praticante já ter alguma iniciação no instrumento.

Pentatônica Menor

 Escalas Pentatônicas Menores
Formação das Pentatônicas Menores:
Tonica, 3ªm, 4ªjusta, 5ª e 7ªm.

Vejamos o exemplo da Penta Menor de A(lá):
Tonica: A(lá)
3ªm: C(dó)
4ªjusta: D(ré)
5ª: E(mí)
7ªm: G(sol)

Ficando no braço do instrumento da seguinte forma:
e--------------------------5-8-
B---------------------5-8------
G----------------5-7-----------
D-----------5-7----------------
A------5-7---------------------
E-5-8--------------------------
  A C D E  G A C D  E G A C
OBS: Repare que as notas se repetem até acabar as cordas.

Para achar a penta de outra nota basta repetir o processo.
Vejamos o exemplo da pentatônica de E{mí):
Tonica: E(mí)
3ªm: G(sol)
4ªjusta: A(lá)
5ª: B(sí)
7ªm: D(ré)

Ficando no braço do instrumento da seguinte forma:
e--------------------------0-3-
B---------------------0-2------
G----------------0-2-----------
D-----------0-2----------------
A------0-2---------------------
E-0-3--------------------------
  E G  A B D E G A B D  E G
OBS: Repare que, novamente, as notas se repetem até acabar as cordas.


Pentatônica Maior

As pentatônicas maiores nada mais são do que as pentas menores um tom e meio mais graves, vejamos o exemplo da penta maior de A(lá):
e--------------------------2-5-
B---------------------2-5------
G----------------2-4-----------
D-----------2-4----------------
A------2-4---------------------
E-2-5--------------------------
 F# A B C# E F# A B C# E F# A

Neste caso muda a formação:
Tonica: A(lá)
6ªM: F#(fá sustenido)
2ªM: B (sí)
3ªM: C# (dó sustenido)
5ª: E (mí)


Desenhos da Pentatônica

Mas a pentatônica não retém-se apenas a 1 desenho no braço do instrumento, você pode obter ainda mais quatro formações da mesma penta, basta alterar a sequência das notas de sua formação, vamos tomar por exemplo novamente a pentatônica de Am(lá), cuja a formação é A(lá), C(dó), D(ré), E(mí), G(sol). Para obter o segundo desenho basta alterar a sequência das notas, dessa maneira: C(dó), D(ré), E(mí), G(sol), A(lá), fazendo isso você alterá a posição da escala, porém, continuará exercendo a escala de  Lá ,só que em outro desenho, vejamos no braço do instrumento:
Obs: Para tirar outros desenhos da Penta Maior faça da mesma forma!

Segundo desenho Penta Menor de A(lá)
e------------------------------8-10-
B------------------------8-10-------
G-------------------7-9-------------
D-------------7-10------------------
A-------7-10------------------------
E-8-10------------------------------
  C D   E G   A C   D E G A   C D
repare que onde começa o segundo desenho é exatamente onde acaba o primeiro.

Para obter o 3º, 4º e 5º desenhos basta continuar alterando a formação das notas, vejamos:
OBS: Repare que em todos eles onde acaba um começa o outro.

Terceiro desenho Penta Menor de A(lá)D(ré), E(mí), G(sol), A(lá) e C(dó)
e-----------------------------------10-12-
B----------------------------10-13--------
G----------------------9-12---------------
D---------------10-12---------------------
A--------10-12----------------------------
E-10-12-----------------------------------

 Quarto desenho Penta Menor de A(lá)
E(mí), G(sol), A(lá) e C(dó) e D(ré)
e------------------------------------12-15-
B-----------------------------13-15--------
G----------------------12-14---------------
D---------------12-14----------------------
A--------12-15-----------------------------
E-12-15------------------------------------

 Quinto desenho Penta Menor de A(lá)
G(sol), A(lál), C(dó), D(ré) e E(mí)
e------------------------------------15-17-
B-----------------------------15-17--------
G----------------------14-17---------------
D---------------14-17----------------------
A--------15-17-----------------------------
E-15-17------------------------------------

Escala Maior
Maior natural de A

E-----------------------------------4-5-7--
B------------------------------5-7---------
G-----------------------4-6-7--------------
D----------------4-6-7---------------------
A---------4-5-7----------------------------
E--4-5-7-----------------------------------

Fórmula da escala: Tônica, 2ªM, 3ªM, 4ªJ, 5ªJ, 6ªM e 7ªM

Escala Menor
Menor Natural de A(lá):
E------------------------------------------5-7-8--
B----------------------------------5-6-8----------
G--------------------------5-7-9------------------
D------------------5-7-9--------------------------
A----------5-7-8----------------------------------
E--5-7-8------------------------------------------

Fórmula da Escala: Tônica, 2ªM, 3ªm, 4ªJ, 5ªJ, 6ªm e 7ªm

Escala Menor harmônica
Menor Harmônica de A(lá):

E------------------------------------------5-7-8--
B----------------------------------5-6-9----------
G--------------------------5-7-9------------------
D------------------6-7-9--------------------------
A----------5-7-8----------------------------------
E--5-7-8------------------------------------------

Fórmula da Escala: Tônica, 2ª, 3ªm, 4ªJ, 5ªJ, 6ªm e 7ªM

Escala Menor Melódica
Menor Melódica de A(lá):
E------------------------------------------5-7-8--
B----------------------------------5-7-9----------
G--------------------------5-7-9------------------
D------------------6-7-9--------------------------
A----------5-7-9----------------------------------
E--5-7-8------------------------------------------

Fórmula da Escala: Tônica, 2ªM, 3ªm, 4ªJ, 5ªJ, 6ªM e 7ªM

12 fevereiro 2011

Curso de Violão e Guitarra - A postura do instrumentista

   Os violonistas clássicos preferem um apoio para os pés, de forma que a perna esquerda fique levemente levantada, para apoiar a caixa do violão, esta técnica permite ao instrumentista maior liberdade para a execução dos acordes em toda a extensão do braço. No violão popular, o que deve ser observado é a inclinação do violão, pois inicialmente tendemos a deitar o violão de boca para cima para ver se os dedos da
mão esquerda estão colocados nos lugares corretos, enquanto que o melhor a se fazer é, manter o violão com a boca virada para frente e não para cima, isto evita que o executante tenha que fazer muito esforço para tocar os acordes, o ideal é que o executante já comece a se acostumar a não olhar para as posições feitas pela mão esquerda e sim decora-las desde já, pois isso acontecerá, quer queiramos ou não, automaticamente. Quanto a perna que se deve apoiar, ou se o executante deve tocar sentado em um banquinho com apoio para o pé ou se deve usar uma correia e tocar de pé, tudo isso fica ao livre arbítrio do executante.
 

09 fevereiro 2011

Curso de Violão e Guitarra - Palhetada Alternada



Vamos aprender a técnica da palhetada alternada. No começo é dificil  tocar sem se atrapalhar com a palheta, mas depois você conseguirá com os olhos fechados. Para conseguir isso, vamos fazer o seguinte exercício (o “C” significa que você vai tocar a palhetada pra cima, e o “B” para baixo):


e-----------------------1-2-1------------------------|
B-------------------1-2-------2-1--------------------|
G--------------1-2-----------------2-1---------------|
D---------1-2--------------------------2-1-----------|
A-----1-2-----------------------------------2-1------|
E-1-2--------------------------------------------2-1-|
B C B C B C B C  B C B C B  C B  C B C B  C B  C B
OBS: Nesse exercício, voce irá começar da 1ª casa e vai até a 11ª(com o dedo 1).Começar fazendo devagar.

No proximo exercício, você vai fazer quase a mesma coisa, mas também vai usar o dedo 3 e 4. 
e---------------------1-2-4-3------------------------|
B-----------------1-2---------4-3--------------------|
G-------------1-2-----------------4-3----------------|
D---------1-2-------------------------4-3------------|
A-----1-2---------------------------------4-3--------|
E-1-2-----------------------------------------4-3----|
B C B C B C B C B C B C B C B C B C B C B C B C
 
OBS: fazer até a 9ª casa com o dedo 1.Começar fazendo devagar.

Exercício:


e-5-4-0-7-5-0-8-7-0-10-8-0-12-10-0--|
B-----------------------------------|
G-----------------------------------|
D-----------------------------------|
A-----------------------------------|
E-----------------------------------|

e-5-4-0-8-7-0-7-5-0------------|
B------------------------------|
G------------------------------|
D------------------------------|
A------------------------------|
E------------------------------|

e-5-4-0-7-5-0-8-7-0-10-8-0-12-10-0--|
B-----------------------------------|
G-----------------------------------|
D-----------------------------------|
A-----------------------------------|
E-----------------------------------|

e-5-4-0-8-7-0-5-3-0------------|
B------------------------------|
G------------------------------|
D------------------------------|
A------------------------------|
E------------------------------|

e-3-2-0-5-3-0-7-5-0-8-7-0-11-8-0-11-12-------|
B--------------------------------------------|
G--------------------------------------------|
D--------------------------------------------|
A--------------------------------------------|
E--------------------------------------------|
OBS:  Tocar os exercícios acima, sem pausa, como se as tablaturas fossem uma só.


Fonte de referencia do artigo: Cifras.com.br

07 fevereiro 2011

Curso de Violão e Guitarra - Curiosidades sobre Guitarra

         -A Afinação das cordas varia com a temperatura.                              
- As cordas dos violões antigos eram feitas de tripas de ovelha.
- Afinações abertas são aquelas onde as cordas soltas soam como um acorde.
- O Korn popularizou a guitarra de 7 cordas.
- A alavanca com trava da Floyd Rose foi criada em 1982.
- A DiMarzio foi a 1ª a fabricar captadores de alta potência.
- A Peavey se inspirou na tecnologia dos fabricantes de armas para fabricar guitarras melhores e mais baratas em 1976.
- A Ernie Ball foi a 1ª a lançar cordas próprias para bends.
- O captador humbucker foi criado para não produzir chiados.
- Em 1860, surgiram as primeiras cordas de aço para violão.
- Nos anos 30, a Gibson foi a 1ª líder do mercado de guitarras.
- Antes da guitarra elétrica, foi criado o violão Ressonator, que amplificava o som através de um cone alto-falante de alumínio.
- "The Beast" é uma guitarra de 6 braços.
- A guitarra é um instrumento tanto de melodia quanto harmonia.
- Estados Unidos é o país com maior concentração de guitarristas do mundo.
- Dá para "tocar guitarra" com um iPhone.
- Mr. Fastfinger é um famoso desenho animado de guitarra.
- A 1ª guitarra elétrica era uma guitarra havaiana.
- A lira foi o 1º instrumento de cordas, criado há 4.800 anos.
- Existem mais de 130 grandes marcas de guitarra no mundo.
- A Fender Stratocaster foi criada em 1954 por Leo Fender.
- A Gibson SG foi feita para ter maior acesso aos últimos trastes.
- A Gibson Firebird foi desenhada por um designer de carros.
- O 1º nome da Fender Telecaster era Fender Broadcaster.
- Os violões da Takamine são famosos por seus captadores.
- PRS significa Paul Reed Smith, o criador da marca de guitarras.
- Um captador tipo Humbucker são 2 captadores simples juntos.
- O nome "guitarra" veio da palavra persa "sihtar".
- O violão é o principal instrumento da música flamenca.
- Uma guitarra de 2 braços tem 18 cordas.
- Uma guitarra Midi pode simular qualquer instrumento.
- Amplificadores valvulados adicionam uma distorção natural.
- A 1ª palheta foi uma ponta de flecha.
- A maioria das palhetas é feita de plástico.
- Há 2.500 anos atrás, os egípcios já usavam palhetas.
- Chicken pickin é uma técnica derivada da música country.
- A Mesa Boogie criou um amplificador de sustain infinito.
- A maioria dos solos de rock só tem 5 notas.
- Anualmente é realizado um Campeonato Mundial de Air Guitar.
- O slide foi descoberto por um havaiano em 1889.
- Um amplificador valvulado oferece uma distorção mais clara e firme.
Fonte Original: GuitarCoast