10 agosto 2010

Curso de Violão e Guitarra - Técnicas (Parte2)


Slide

O slide consiste em tocar uma nota e imediatamente após "escorregar" o dedo para outra casa. O som das notas de transição de uma casa para outra serão quase inaudíveis, a não ser que seja proposital fazer soá-los.


Exemplo

E--------------------
B--------------------
G----------2s5-------
D--5s7--7-------5s7--
A--------------------
E--------------------

Bend

Consiste em tocar uma nota e move-la junto ao braço fazendo com soe com o som mais agudo, caracterizando o som de outra nota. O bend pode ser de 1/4 de tom, 1/2 tom, 1 tom, 1 tom e 1/2, 2 tons, 2 tons e 1/2 ou 3 tons.
Nas cordas agudas puxa-se a corda pra cima, nas graves para baixo.

Exemplo

E--------------------
B--------------------
G-----5b----5b-------
D--5b----5b----7-----
A--------------------
E--------------------

Neste caso o "b" representa um bend de 1/2 tom, a nota dó da casa 5 ao sofrer o bend soou como um dó sustenido.

Pré-Bend

Consiste em puxar uma nota para alcançar o som que se queira e após isso executar a nota, a diferença do pré-bend pro bend é que no bend primeiro você toca a nota do traste que está marcando e depois ergue a corda e no pré-bend você primeiro ergue a corda e depois toca, omitindo a nota de origem. Também vai de 1/4 de tom à 3 tons.

Exemplo

E--------------------
B--------------------
G-----b5----b5-------
D--b5----b5----7-----
A--------------------
E--------------------

Neste caso, um pré-bend de 1/2 tom, a nota de origem, o dó, não soa, apenas o dó sustenido.

Release

Consiste em "baixar" a corda após um bend ou de um pré-bend.

Exemplo

E--------------------
B--------------------
G--------5br5--------
D--5br5--------7-----
A--------------------
E--------------------

Ligado

O ligado nada mais é do que tocar uma e "martelar" uma casa mais aguda, ou "desmarcar" a nota que foi tocada para uma outra casa mais grave soar. Esse recurso é muito utilizado para licks velozes, pois dispensa o uso de palheta.

O ligado ascendente quando você "martela" uma casa mais aguda também é chamado de hammer on.
O ligado descendente quando você "desmarca" a nota atual para soar uma mais grave também é chamado de pull off.


Exemplo

E--------------------
B--------------------
G--------5h7p5-------
D--5h7p5-------7-----
A--------------------
E--------------------

Tapping
É usar a mão da palheta para "martelar" uma casa. Esse recurso é usado para alcançar rapidamente regiões mais agudas do braço do instrumento.

Exemplo

E--------------------
B--------------------
G--------5-t17-------
D--5-t17------7------
A--------------------
E--------------------