08 março 2010

CURSO DE VIOLÃO E GUITARRA - Tablaturas - Exercícios para iniciantes

Temos logo abaixo uma música muito tradicional "Parabéns", onde os dedos da mão esquerda serão Indicador para casa 5 e anular para casa 7.

Trecho de "Parabéns"

e:|-------------|-------------|-----------------|---------------|
B:|-------------|-------------|-----------------|---------------|
G:|-------------|-------------|-----------------|---------------|
D:|---------5-4-|---------7-5-|-----9-5-5-5-4-2-|-10-10-9-5-7-5-|
A:|-5-5-7-5-----|-5-5-7-5-----|-5-5-------------|---------------|
E:|-------------|-------------|-----------------|---------------|

Este exemplo mostra notas tocadas uma a cada tempo.
Tente executar este outro exemplo:

Trecho de "Jingle Bells" (Música Natalina)

e:|--------------|----------------|--------------------------------|
B:|--------------|----------------|----------3-3-3-33-5-3-------3--|
G:|-----4-2-0----|-------4-2-0----|----5-4-2--------------5-2-0----|
D:|---0-------0--|--00-0-------2--|--2-----------------------------|
A:|--------------|----------------|--------------------------------|
E:|--------------|----------------|--------------------------------|

Observe agora alguns exemplos onde teremos duas notas ou mais tocadas de uma só vez no mesmo tempo.

Trecho de "Asa Branca"

e:-------------0---0-----------|--------------0----0----------|
B:------0---2---------2--3---3-|------0---2------------3---2--|
G:--2--------------------------|--2---------------------------|
D:-----------------------0-----|------------------------------|
A:----------0------------------|----------0----------------0--|
E:-----------------------------|-------------------0----------|
| | | | |

| = Duas notas tocadas no mesmo tempo


Trecho de "Carruagens de fogo" (Tema das olimpíadas)

e:--------0--2--0------|--------0--2--0-----------------------|
B:-----3------------2--|-----3--------------------------------|
G:--2------------------|--2-----------------------------------|
D:-----0---------------|-----0--------------------------------|
A:--------------0------|--------------0-----------------------|
E:---------------------|--------------------------------------|
| | | |


No trecho abaixo encontraremos 3 notas tocadas ao mesmo tempo

Trecho de "Eu sei que vou te amar"

e:--------------------|-------------------------------------|
B:-----0--0--0--0--0--|--------0--1--0-----1--1--1--1--1----|
G:--0--0--------------|-----2-----------2--2----------------|
D:--------------------|--1-----------------0----------------|
A:-----3--------------|-------------------------------------|
E:--------------------|-------------------------------------|
| |

Temos que levar em conta um conhecimento prévio das musicas para que a tablatura possa realmente nos mostrar trechos corretos. Estando familiarizado, você tem uma noção do ritmo e do tempo que é executada cada nota.

Agora um exemplo que demonstra uma batida em um acorde, no exemplo, o acorde de La Maior. Teríamos uma batida envolvendo todas as notas do acorde.

A (La Maior)
E----0---------------------------------------
B----2---------------------------------------
G----2---------------------------------------
D----2---------------------------------------
A----0---------------------------------------
E--------------------------------------------

Nenhum comentário: