07 fevereiro 2010

CURSO DE VIOLÃO E GUITARRA - Arpejos

Um arpejo é um acorde no qual as notas são tocadas individualmente e em sucessão rápida.O toque do arpejo também é conhecido como sweep devido ao movimento de varredura feita pela palheta quando o movimento é executado. Vamos começar com o acorde de Am mostrado abaixo.
|---0---|
|---1---|
|---2---|
|---2---|
|---0---|

..
Enquanto você mantém o acorde pressionado, as primeiras 5 notas devem ser tocadas com uma palhetada para baixo em uma longa varredura. Então toque as 4 notas restantes com a palheta para cima em uma varredura para cima.
.
E ||---------------0--------------------------||
B ||------------1-----1----------------------||
G ||---------2-----------2-------------------||
D ||------2-----------------2----------------||
A ||---0----------------------0--------------||
E ||-------------------------------------------||
..-----^--^--^--^--^--v--v-v--v-----

Agora, vamos tocar 2 acordes arpejados usando o Am e o C.
.
E ||---------------0----------------------0-----------------||
B ||------------1-----1---------------1-----1-------------||
G ||---------2-----------2---------0-----------0----------||
D ||------2-----------------2---2------------------2------||
A ||---0----------------------3-----------------------3----||
E ||---------------------------------------------------------||
.------^---^-^-^-^---v--v--v--v--^-^-^-^---v--v--v--v .

Se soar familiar é porque é o início da famosa música do grupo Animals chamado House of the Rising Sun. A canção usa vários arpejos fáceis. Se você estiver tocando em uma banda cover, você notará que esta é uma das músicas mais requisitadas por todos.
.
INa lição sobre Formação de Acordes você aprendeu que o acorde é formado de pelo menos 3 notas determinadas por uma regra musical. Um dos acordes que nós construímos foi o acorde de D Menor O acorde de D menor consiste das seguintes notas - D, F , A. Agora , vamos tocar o acorde de D menor arpejado.

E ||---------------13-17-13-------------------------||
B ||------------15------------15----------------------||
G ||---------14-------------------14------------------||
D ||------15-------------------------15---------------||
A ||---17--------------------------------17-----------||
E ||--------------------------------------------------- ||
-------^---^--^--^--^---v--^--v--v--v---v
.
Experimente tocar vários arpejos usando vários acordes. É importante usar palhetadas para baixo e palhetas para cima para conseguir o efeito musical correto.
Quando for praticar estes exercícios, toque a nota, abafe , então toque a próxima nota. Comece praticando devagar e aumente a velocidade aos poucos.


Um comentário:

Anônimo disse...

Gostei muito dessa aula pois nao pensava que era tao faciu assim