31 agosto 2009

CURSO DE VIOLÃO E GUITARRA - Tablaturas

Tablatura é uma representação gráfica do braço do instrumento (violão, guitarra e baixo além de outro tipo diferente para bateria e outro ainda mais diferente e muito mais pobre para gaita) que indica todas as notas e acordes que devem ser efetuados durante a música. Uma partitura é o método mais completo para se escrever e tocar música porque possui a marcação do tempo da música e através de uma partitura é possível tocar-se uma música mesmo sem conhecê-la, o que já não acontece com a tablatura (apesar de algumas também apresentarem marcação de tempo) onde você precisa conhecer o tempo da música para tocá-la, mas a tablatura é uma saída muito eficiente, pois é muito simples e objetiva. Veja a seguir as explicações:
As cordas representadas na tablatura correspondem de cima para baixo às cordas do violão (ou guitarra) da mais fina para a mais grossa, ou seja, a corda mais fina Mi (misinha) é a corda que é representada primeiro na tablatura (no caso do baixo a tablatura começa na corda G).
Já sabemos que cada linha corresponde a uma corda do instrumento, os números que são colocados correspondem à casa que será tocada, como no exemplo abaixo, no acorde Am, toca-se a 1ª corda solta, a 2ª corda na 1ª casa, a 3ª corda na 2ª casa e assim por diante.
Quando as notas (os números) são representadas uma embaixo da outra, significa que devem ser tocadas simultaneamente como no caso dos acordes exemplificados abaixo:
Am E G F C
e-------------0-------0-------3-------1-------0----------------
B-------------1-------0-------3-------1-------1----------------
G-------------2-------1-------0-------2-------0----------------
D-------------2-------2-------0-------3-------2----------------
A-------------0-------2-------2-------3-------3----------------
E-------------X-------0-------3-------1-------X----------------
Note no caso abaixo a representação do movimento alternado (^v ^v ), para cima e para baixo, das palhetadas, onde cada nota é tocada isoladamente, pela ordem de leitura, a 6ª
^ v ^ v ^ v ^ v ^ v ^ v ^ v
e-------------------------------------------------5---8--------
B-----------------------------------------5---8----------------
G-----------------------------5---7---8------------------------
D---------------------5---7------------------------------------
A---------5---6---7--------------------------------------------
E-5---8--------------------------------------------------------

Nenhum comentário: