02 agosto 2009

CURSO DE VIOLÃO E GUITARRA - Desenhos da escala pentatônica

A escala pentatônica não retém-se apenas a 1 desenho no braço do instrumento, você pode obter ainda mais quatro formações da mesma penta, basta alterar a sequência das notas de sua formação, vamos tomar por exemplo novamente a pentatônica de Am(lá), cuja a formação é A(lá), C(dó), D(ré), E(mí), G(sol),para obter o segundo desenho basta alterar a sequência das notas, dessa maneira: C(dó), D(ré), E(mí), G(sol), A(lá), fazendo isso você alterá a posição da escala, porém, continuará exercendo a escala de lá só que em outro desenho, vejamos no braço do instrumento:
PS: Para tirar outros desenhos da Penta Maior faça da mesma forma!
-> Segundo desenho Penta Menor de A(lá)
e------------------------------8-10-
B------------------------8-10-------
G-------------------7-9-------------
D-------------7-10------------------
A-------7-10------------------------
E-8-10------------------------------
C D E G A C D E G A C D
repare que onde começa o segundo desenho é exatamente onde acaba o primeiro.

Para obter o 3º, 4º e 5º desenhos basta continuar alterando a formação das notas, vejamos:
OBS: Repare que em todos eles onde acaba um começa o outro.
-> Terceiro desenho Penta Menor de A(lá)
D(ré), E(mí), G(sol), A(lá) e C(dó)
e-----------------------------------10-12-
B----------------------------10-13--------
G----------------------9-12---------------
D---------------10-12---------------------
A--------10-12----------------------------
E-10-12-----------------------------------

-> Quarto desenho Penta Menor de A(lá)
E(mí), G(sol), A(lá) e C(dó) e D(ré)
e------------------------------------12-15-
B-----------------------------13-15--------
G----------------------12-14---------------
D---------------12-14----------------------
A--------12-15-----------------------------
E-12-15------------------------------------

-> Quinto desenho Penta Menor de A(lá)
G(sol), A(lál), C(dó), D(ré) e E(mí)
e------------------------------------15-17-
B-----------------------------15-17--------
G----------------------14-17---------------
D---------------14-17----------------------
A--------15-17----------------------------
E-15-17------------------------------------

www.artmaia.com

Nenhum comentário: