29 julho 2009

CURSO DE VIOLÃO E GUITARRA - Escalas Pentatônicas

O que é Pentatônica?
- Pentatônica é o nome de uma escala formada por cinco notas, original do blues que, por ser formada de cinco notas leva esse nome.

Para que é usada? Por que estuda-la?
- É usada na criação de solos e riffs nos mais diversos campos do rock, desde o blues até o metal. É interessante você estudar a escala pentatônica pois ela é muito usado hoje em dia, compreendendo essa escala você saberá de onde famosos guitarristas criam os solos e poderá criar seus próprios solos e licks.

Iniciação

Vamos começar a chamar as escalas pentatônicas de "pentas", pois é um termo abreviado e bastante usado, bem para começarmos é necessário saber que existem penta menor e penta maior, porém a mais conhecida e usada é a menor.
Isso já é o necessário para que você comece a estudar a escala pentatônica, é importante salientar que para que esse estudo comece o ideal é o praticante já ter alguma iniciação no instrumento.

Pentatônica Menor

-> Escalas Pentatônicas Menores
Formação das Pentatônicas Menores:
Tonica, 3ªm, 4ªjusta, 5ª e 7ªm.

Vejamos o exemplo da Penta Menor de A(lá):
Tonica: A(lá)
3ªm: C(dó)
4ªjusta: D(ré)
5ª: E(mí)
7ªm: G(sol)
Ficando no braço do instrumento da seguinte forma:

e--------------------------5-8-
B---------------------5-8------
G----------------5-7-----------
D-----------5-7----------------
A------5-7---------------------
E-5-8--------------------------
A C D E G A C D E G A C
OBS: Repare que as notas se repetem até acabar as cordas.



Para achar a penta de outra nota basta repetir o processo.
Vejamos o exemplo da pentatônica de E{mí):
Tonica: E(mí)
3ªm: G(sol)
4ªjusta: A(lá)
5ª: B(sí)
7ªm: D(ré)
Ficando no braço do instrumento da seguinte forma:
e--------------------------0-3-
B---------------------0-2------
G----------------0-2-----------
D-----------0-2----------------
A------0-2---------------------
E-0-3--------------------------
E G A B D E G A B D E G
OBS: Repare que, novamente, as notas se repetem até acabar as cordas.


Pentatônica Maior


As pentatônicas maiores nada mais são do que as pentas menores um tom e meio
mais graves, vejamos o exemplo da penta maior de A(lá):

e--------------------------2-5-
B---------------------2-5------
G----------------2-4-----------
D-----------2-4----------------
A------2-4---------------------
E-2-5--------------------------
F# A B C# E F# A B C# E F# A

Neste Caso Muda a formação:
Tonica: A(lá)
6ªM: F#(fá sustenido)
2ªM: B (sí)
3ªM: C# (dó sustenido)
5ª: E (mí)

Nenhum comentário: