18 maio 2009

CURSO DE VIOLÃO E GUITARRA - Nível Básico


CURSO DE VIOLÃO E GUITARRA - Exercícios Básicos
Estes são exercicios simples e é de fundamental importância alternar a palhetada, na descida uma pra baixo outra pra cima, e na subida uma pra cima outra pra baixo.

Exercício 1 - Esse é o mais simples de todos, apenas toque as cordas alternando as palhetadas como dito acima.

Exercício 2
E-------------------------------1-2---2-1-------------------------------
B-------------------------1-2--------------2-1--------------------------
G-------------------1-2--------------------------2-1--------------------
D-------------1-2--------------------------------------2-1--------------
A-------1-2--------------------------------------------------2-1--------
E--1-2--------------------------------------------------------------2-1-

Exercício 3
E-------------------------------1-3---3-1-------------------------------
B-------------------------1-3--------------3-1--------------------------
G-------------------1-3--------------------------3-1--------------------
D-------------1-3--------------------------------------3-1--------------
A-------1-3--------------------------------------------------3-1--------
E--1-3--------------------------------------------------------------3-1-

Exercício 4
E-------------------------------1-4---4-1-------------------------------
B-------------------------1-4--------------4-1--------------------------
G-------------------1-4--------------------------4-1--------------------
D-------------1-4--------------------------------------4-1--------------
A-------1-4--------------------------------------------------4-1--------
E--1-4--------------------------------------------------------------4-1-
Voltar ao início

Nenhum comentário: