20 fevereiro 2009

GUITARRA - Técnicas de abafamento

Abafamento com a palma da mão é uma técnica importante usada primariamente ao tocar Guitarra elétrica. Esta técnica pode ser usada na guitarra acústica também. Esta aula irá cobrir a técnica de abafamento em 2 maneiras. Uma das maneiras é usado para conseguir o som muito usado em Heavy Metal. A segunda maneira, a mais importante, é mostrado como a palma da mão é usada para abafar notas que você não quer que apareçam, principalmente quando você está tocando usando efeitos de distorção e ganhos. Por este motivo que nesta aula os estudos serão direcionados para a guitarra elétrica.
Para abafar com a palma, coloque a palma da sua mão direita perto da ponte da guitarra enquanto toca algumas nota.Use a parte da palma abaixo do polegar. Toque as notas abaixo usando palhetas para baixo. Assegure-se que a guitarra está plugada no amplificador e você esteja usando uma distorção pesada.

E ---------------------------------------------------------------------
B ---------------------------------------------------------------------
G ---------------------------------------------------------------------
D ---------------------------------------------------------------------
A ---------------------------------------------------------------------
E --0-0-0-0--0-0-0-0--0-0-0-0--0-0-0-0--------------------------
........----------------P.M.-----------------------
Abafamento da corda E é muito utilizada no Heavy Metal e no Rock. Também é usado na corda A solta.
Agora use o abafamento com a palma fazendo o acorde de F#.. Ao tocar o acorde, use palhetadas para baixo e gradualmente levante a palma da mão da ponte em ritmo lento até o acorde parar de soar. Finalize tocando um power chord em E, o qual você pode deixar soar.

E ---------------------------------------------------------------------
B ---------------------------------------------------------------------
G ---------------------------------------------------------------------
D ---4-4-4-4-4-4-4-4-4-4-4-4-4-4-4-4---2--------------------------
A ---4-4-4-4-4-4-4-4-4-4-4-4-4-4-4-4---2--------------------------
E ---2-2-2-2-2-2-2-2-2-2-2-2-2-2-2-2---0--------------------------
........----------------P.M.----------------------
USANDO O ABAFAMENTO PARA SONS MAIS LIMPOS
Quase sempre quando se toca a guitarra, a palma da mão fica perto da ponte, então quando se precisa abafar algumas notas é só fazer uma pequena pressão na ponte.Fazendo isso, os exercícios se tornarão mais fáceis.
Como as cordas soltas soam por mais tempo, vamos praticar os próximos exercícios com cordas soltas e o amplificador no máximo de distorção e ganho. Após tocar cada uma das notas, abafe a corda na ponte da guitarra com a palma da mão. Começe fazendo os exercícios lentamente e vá aumentando a velocidade para você adquirir a técnica.

E ---------------------------------------------------------------------
B ---------------------------------------------------------------------
G ---------------------------------------------------------------------
D --------0---------0--------0----------0----------------------------
A ---------------------------------------------------------------------
E ----0-------0---------0--------0------------------------------------

Uma excelente maneira de se praticar a técnica é usando escalas. Toque uma escala. Antes de ir para a próxima corda, rapidamente afabe a corda tocada com a palma da mão e libere, então , vá para a próxima corda. Também faça isso quando praticar a escala no modo reverso. Experimente tocar primeiro com a Escala Pentatônica A.

E ------------------------------5-8----8-5---------------------------
B -------------------------5-8---------------8-5---------------------
G ------------------5-7---------------------------7-5----------------
D -------------5-7-------------------------------------7-5-----------
A -------5-7-------------------------------------------------7-5-----
E -5-8-----------------------------------------------------------8-5-
Para outras escalas, verifique a teoria sobre escalas. . É importante saber usar a técnica se você tem intenção de tocar solos de guitarra. De outra maneira, os solos sairão com bastante ruído e não é agradável ouví-los. Estes exemplos poderão ajudá-lo a aprender o básico da técnica em si.

www.artmaia.com

Nenhum comentário: