25 agosto 2008

FINGER PICKING ( DEDILHADO ) - PARTE 1

Finger picking é a técnica de tocar a Guitarra onde os dedos são usados em vez de se usar uma palheta.Esta lição mostrará alguns tipos de finger picking (dedilhado). Quando ler música que usa a técnica, você verá o termo "PIMA" ou as iniciais P, I, M ou A . PIMA representa o dedo polegar e os outros 3 primeiros dedos da mão direta. O termo PIMA é usado para indicar qual dedo deve-se usar para tocar a nota.
Essas letras são abreviações do Espanhol e representam:
Pulgar = Polegar
Indice = Indicador
Medio = Médio
Anular = Anular
Pronto? Então vamos começar o nosso primeiro exercício. Use sua mão esquerda para formar o acorde de E no braço da Guitarra. Toque as notas usando sua mão direita e os dedos indicados. Toque de baixo para cima usando a ponta do dedo (Toque de cima para baixo quando for usar o Polegar). Você pode usar a ponta do dedo para tocar ou a unha. O que for melhor para você.
-----P--A--M--I--P--A---M-I----P
E ------0--------------0-----------------
B ----------0--------------0-------------
G -------------1--------------1----------
D --2--------------2---------------2----
A -----------------------------------------
E -----------------------------------------
No próximo exercício usaremos o mesmo acorde, mais iremos usar os dedos descendentemente. Comece tocando devagar e vá aumentando a velocidade aos poucos.
----P----I----M--A--P-I--M--A
E ----------------0-------------0--------
B -----------0-------------0-------------
G -------1-------------1-----------------
D --2--------------2---------------------
A -----------------------------------------
E -----------------------------------------
www.artmaia.com
12 anos formando talentos!Blog cadastrado no Rec6

Nenhum comentário: