17 maio 2006

CURSO BÁSICO DE VIOLÃO E GUITARRA - A Técnica da Palhetada


Bom já vimos como é a arte de solar. Descrevemos também algumas técnicas que dão origem aos efeitos sonoros. Este capítulo tem o intuito de complementar aquele, pois abordaremos as principais técnicas de palhetada, mas com exemplos e exercícios. Vamos a elas:
· Palm Mute ou Cordas Abafadas
Consiste em dar a palhetada encostando levemente a parte inferior da mesma mão que palheta nas cordas bem próximo ao cavalete (parte que fixa as cordas).

· Como segurar a Palheta (Pick) e Palhetada Alternada
Segure a palheta de modo a obter firmeza e que lhe permita tocar com velocidade, para isso indico tocar segurando a palheta entre o polegar e os dedos indicador e médio.
E a palhetada alternada é um modo de bater a palheta nas cordas de maneira que você obtenha uma máxima rapidez. Aqui abaixo mostro um exemplo, que deve ser executado alternando uma palhetada para baixo, outra para acima, outra para baixo, outra para cima, e assim por diante. Convencionei ^ como palhetada para cima, _ como palhetada para baixo. Pratique o exemplo tocando alternadamente:

^ _ ^ _ ^ e assim por diante...
E------------------------------
B-----9-9-9-9-11-11-11-11-12-12-
G-9-9-9-9-11-11-11-11-12-12-12-12
D--------------------------------
A--------------------------------
E--------------------------------

· Slide (Deslizada)
Consiste em deslizar o dedo no braço de uma posição para outra, de uma nota para outra. Veja o exemplo abaixo. apertando na casa 2, desliza até a 5, da 6 desliza até a 7, etc
---------------------------------------
--------------------------------------
---------------------------------------
2/5---6/7--6----3----2/5---6/7---6---3-
----------------------------------------
----------------------------------------
Bend
O bend consiste em você fazer uma nota, esticar a corda de maneira que ela soe como a próxima nota, pode ser full (bend completo), o que consiste em soar como dois frets (trastes) mais próximos do corpo da guitarra ou half (meio bend), soa como um fret mais agudo apenas. A notação varia, esteja atento na tablatura para a explicação da notação.

E-7b8-7b8-7b8-7b8-8b10-
B----------------------
G----------------------
D----------------------
A----------------------
E----------------------
· Vibrato
Você tensiona a corda como se fosse um bend, só que rápidamente, indo e voltando. O simbolo mais usual é mesmo o ~ (til).
E-------------12-15~
B----------13-------
G-------14----------
D----14-------------
A-12----------------
E-------------------

· Hammer on
Poderia chamar de martelada. A idéia é esta, você martela com o dedo no braço da guitarra produzindo som sem dar palhetada. A notação normal é H, de hamer-on. Por exemplo, 7h9h10 significa que você tem um dedo na casa 7, e com outro bate na casa nove e depois com outro ainda bate na casa 10. Veja o exemplo abaixo nesta trecho da escala locria em B (si).
h = hammer-on
E-----------------------------
B------------------------------
G----------------------7h9h10-
D---------------7h9h10--------
A--------7h8h10---------------
E-7h8h10----------------------
· Pull Off
Pull off é o complemento natural do hammer on. Você desta vez retira o dedo, produzindo o som. Vamos aproveitar a mesma escala do exemplo anterior, só que voltando.

p = pull-off
E-----------------------------
B-----------------------------
G-10p9p7----------------------
D--------10p9p7---------------
A---------------10p8p7--------
E----------------------10p8p7-
· Tapping
Tapping consiste em você combinar hammer ons e pull offs utilizando as duas mãos, não utilizando a palheta. No Lick exemplo abaixo, eu utilizo o dedo indicador da mão direita para pressionar as casas 8 e 10. Não esquecendo que H é hammer on e P é de Pull off (vide os mesmos nesta página).

E-0h5h8p5---0h5h8p5----0h5h10p5--0h5h10p5-
B-------------------------------------------------------
G------------------------------------------------------
D------------------------------------------------------
A------------------------------------------------------
E------------------------------------------------------
· Harmonics - Harmonicos
Você pode criar um harmonico natural (natural harmonic - NH) tocando no fret correspondente a uma oitava acima da nota tocada. por exemplo, se eu toco uma nota na casa 3, devo encostar levemente o dedo na casa 15 (12 casas, uma oitava).

E----------NH
B-------NH-9-
G----NH-7----
D-NH-5-------
A-3----------
E------------
Chegamos ao fim dessa lição, espero que vocês aproveitem as dicas e comentem sobre os próximos assuntos que gostariam de ver nesse blog,e quero convidar a todos para conhecer a minha coluna FALANDO DE MÚSICA,no site www.artmaia.com , lá vocês vão encontrar muitas dicas sobre violão, guitarra e música em geral.
Abraços!!!
RAPHAEL MAIA

Nenhum comentário: